Great Gig Last Night!!! (Warning: Slashtone Content)

Joeydego

your mom is a nice lady
V.I.P. Member
Joined
Feb 28, 2008
Messages
24,084
Reaction score
38,839
Had a really good gig with my band Rock Kandy and Constantine Maroulis last night aboard the majestic princess which sailed out of Weehawken, NJ. Its a fun cruise, sails around the statue (of liberty, for you Iowans).

Anyway, we sold out (255) right before the gate closed which felt good. At 35 a ticket on a thursday thats not easy. Constantine was awesome, a perfect gentleman and what a set of pipes!! Check him out (and stick around for my lead god damnit).

For you gear nuts, thats a Doug Rappoport Kenai (if you dont know Doug or his work, CHECK HIM OUT. SERIOUSLY) into a Friedman Phil X 100w head and a Friedman 4x12 cab. TC G System has a light delay (if I remembered to kick it on), compression for the lead and the auto wah which can still apparently use a few tweeks.
 

Attachments

jdto

Pretend Human
Premium Member
Joined
Sep 8, 2015
Messages
2,903
Reaction score
4,209
Very nice! You rocked it.
 

ehb

Chief Discombobulator
Premium Member
Joined
Feb 20, 2013
Messages
34,851
Reaction score
151,010

Malikon

RIP Atomic Punk
V.I.P. Member
Joined
Jan 21, 2010
Messages
79,962
Reaction score
237,051
Joey the intro sounds like you're doing..

---------------------15-------14-------
------15--12---------------------------
----------------14-------14--------14-
-12-------------------------------------
-----------------------------------------
-----------------------------------------

instead of..

------------------------15-------14--------
------15------------------------------------
-----------14---12----------14-------14---
-12-----------------------------------------
---------------------------------------------
---------------------------------------------

which is driving my ears crazy :laugh2:

Ears keep twitching like the guitar is out of tune but it's not out of tune.

tumblr_ln70t9UHVV1qe2jylo1_500.jpg


other than that nice playing as always.
 
Last edited:

rxbandit

Senior Member
Joined
Sep 8, 2009
Messages
8,922
Reaction score
17,803
intro sounds like you're doing..

---------------------15-------14-------
------15--12---------------------------
----------------14-------14--------14-
-12-------------------------------------
-----------------------------------------
-----------------------------------------

instead of..

------------------------15-------14--------
------15------------------------------------
-----------14---12----------14-------14---
-12-----------------------------------------
---------------------------------------------
---------------------------------------------

which is driving my ears crazy :laugh2:

Ears keep twitching like the guitar is out of tune but it's not out of tune.

View attachment 259335
First thing I heard too! Otherwise great vid Joey, looks like everyone had a good time
 

Malikon

RIP Atomic Punk
V.I.P. Member
Joined
Jan 21, 2010
Messages
79,962
Reaction score
237,051
it was driving me crazy until I figured out what it was. :laugh2:
 

DotStudio

Senior Member
Joined
Nov 12, 2015
Messages
5,685
Reaction score
12,984
intro sounds like you're doing..

---------------------15-------14-------
------15--12---------------------------
----------------14-------14--------14-
-12-------------------------------------
-----------------------------------------
-----------------------------------------

instead of..

------------------------15-------14--------
------15------------------------------------
-----------14---12----------14-------14---
-12-----------------------------------------
---------------------------------------------
---------------------------------------------

which is driving my ears crazy :laugh2:

Ears keep twitching like the guitar is out of tune but it's not out of tune.

View attachment 259335

other than that nice playing as always.

(though c'mon man,..auto-wah? :laugh2: )
Thank you! I thought I was going crazy! :rofl:

Killed it on the solo though.
 
Last edited:

Joeydego

your mom is a nice lady
V.I.P. Member
Joined
Feb 28, 2008
Messages
24,084
Reaction score
38,839
Mal, funny shit is thats how I USED to play it! But no, the 2nd example is how I play it BUT.....I slide from the A to the G on the G string, which is probably what drives you crazy. I played it the 1st way for YEARS, until someone pointed out I was playing it wrong. Muscle memory occasionally has me stumbling on it even until this day. I believe its the slide you're hearing, not a wrong (improper) note.
 

Tone deaf

Senior Member
Joined
Apr 12, 2011
Messages
31,226
Reaction score
58,358
eeeeh, no way to do that and be in the crowd where I like to be for this one. I actually took the wah OFF the board because I so seldom used it.
You need the rack mount Cry Baby with up to six remote pedals that you can scatter around the place.
 

Joeydego

your mom is a nice lady
V.I.P. Member
Joined
Feb 28, 2008
Messages
24,084
Reaction score
38,839
You need the rack mount Cry Baby with up to six remote pedals that you can scatter around the place.
lol. People already fall over the monitors and one person fell thru the PA and it landed on my board. I do like that rackmount crybaby tho.
Im not sure the evntide I have H9 has a good auto wah in it?
 


Latest Threads



Top